Guitarboard black crowes lyrics
Guitar Wiki   Top Guitar Sites
Home | Guitar Wiki | Top 100 Artists | Contact us
  Browse artists: A B C D E F G H I J K L M N O P Q R S R T U V W X Y Z 0 1 2 3 4 5 6 7 8 9 Print tablature  
   
 

wiser time



 Song   :  Wiser Time
 Artist :  Black Crowes
 Album  :  Amorica
 E-Mail :  Clayton   evenflow_pj@yahoo.com
This takes alot of time to do.
So if I ever tab another song, 
then look for it on my website
http://www.geocities.com/evenflow_pj
Guitar One - Standard Tuning (high to low) eBGDAE
Guitar Two - G Tuning        (high to Low) DBGDGD  
 b - bend
 p - pull-off
 h - hammer-on
  - slide down
 / - slide up
        Verse
     (Strumming isn't exact)
     (listen to the song to get it right)
e|--1-1--1---0-0--0---3-3--3-3--3--|
B|--3-3--3---1-1--1---0-0--0-0--0--|
G|--3-3--3---2-2--2---0-0--0-0--0--|
D|--0-0--0---2-2--2---0-0--0-0--0--|
A|--1-1--1---0-0--0---x-x--x-x--x--|
E|--------------------3-3--3-3--3--|
        First Solo
e|-----------------------------------------------------------------------|
B|-----------------------------------------------------------------------|
G|-2--2b3(3)-(3)-(3)r2p0---0-----2b4----2b4----0-------------------------|
D|-----------------------2-----2-----------------------------------------|
A|-----------------------------------------------------------------------|
E|-----------------------------------------------------------------------|
        Chorus 
           and on a good day        oh, I know it aint everyday
e|-----------------------------------------------------|
B|-----------------------------------------------------|
G|-----------------------------------------------------|
D|-5---7-7-------------------7---9-9-------------------|
A|-x---x-x-------------------x---x-x-------------------|
E|-3---5-5-------------------5---7-7-------------------|
   we  can  part the   sea
e|-----------------------3---------------------------------|
B|-----------------------0---------------------------------|
G|-----------------------0---------------------------------|
D|--129-----107----95-0---------------------------------|
A|--x--x------x-x----x-x-x---------------------------------|
E|--107------85----73-3---------------------------------|
              Second Solo
 
e|----------------------------------------------------------------------|
B|----------------------------------------------------------------------|
G|--14b15-14b15~~15r14p12----12-14b16-----12---12----12--12-------------|
D|------------------------14----------------------14--------14p12-14-12-|
A|----------------------------------------------------------------------|
E|----------------------------------------------------------------------|
e|------------------------------------------------------------------|
B|----------15--------------------------15--------------------------|
G|--------------14b15r14p12--14p12---------14b15~~15r14p12----12-12-|
D|----------------------------------14---------------------14-------|
A|-14-12------------------------------------------------------------|
E|------------------------------------------------------------------|
"No time..."
e|--------------------------------------------|
B|-15-----------------------------------------|
G|-----14b15r14p12------12--12-14b16----12~~--|
D|------------------14------------------------|
A|--------------------------------------------|
E|--------------------------------------------|
              Third Solo
   guitar one
e|----------------------------------------------------------------------|
B|----------------------------------------------------------------------|
G|-----14-14b15-----14-14p12----14b16---12b14--12-12~-------------------|
D|---------------------------14--------------------------14------14-12~-|
A|----------------------------------------------------------(14)--------|
E|----------------------------------------------------------------------|
   guitar one
e|-------------------------------------------------------------------------|
B|-------15---------------15---------------------15b17--15-----------------|
G|----12------14b15r14p12-----14b15r14p12-14p12----------------------------|
D|-12----------------------------------------------------------------------|
A|-------------------------------------------------------------------------|
E|-------------------------------------------------------------------------|
   guitar one
e|------------------------------------------------------|
B|------------------------------------------------------|
G|-14b15---14p12----12----12----12-12----12-------------|
D|---------------14----14----14-------14----14----------|
A|------------------------------------------------------|
E|------------------------------------------------------|
   guitar one
e|----------------------------------------------15b17-15b17--15-12----12-|
B|-15---------------------15---------------------------------------15----|
G|----14b15-14p12----12------14b15-14p12----12---------------------------|
D|----------------14---------------------14------------------------------|
A|-----------------------------------------------------------------------|
E|-----------------------------------------------------------------------|
   guitar one
e|-----------------------------------------------------------------------|
B|-15b17r15p12-------12-12-----------------------------------------------|
G|---------------14---------14b16r14p12-14p12-14-14b16r14b16----12-12----|
D|-----------------------------------------------------------14-------14-|
A|-----------------------------------------------------------------------|
E|-----------------------------------------------------------------------|
         guitar one
e|-----------------------------------------------------------12-----------|
B|--------------------------------------------12----12-12-12-13-15----15--|
G|-12-12--------------------------12----12-12-14p12-14-14----------12-----|
D|-------14p12-14-14-12-14-12h14-----14-----------------------------------|
A|------------------------------------------------------------------------|
E|------------------------------------------------------------------------|
         guitar one
e|------------------------------------------------------------------------|
B|--15b17-------15-----15---15-15----15-----15----15-15----15-----15h18p15|
G|--------17b19-17b19~-17------17b19-17b19~~17b19----17b19-17b19----------|
D|------------------------------------------------------------------------|
A|------------------------------------------------------------------------|
E|------------------------------------------------------------------------|
         guitar two (w/ slide [tuned-open G])
e|-12/17~~17~~~~~~~~~17~~~~~~~~~17~~~~~~~~~17/21---17~~~~~~~~~17~~~~~~~17~|
B|------------------------------------------------------------------------|
G|------------------------------------------------------------------------|
D|------------------------------------------------------------------------|
A|------------------------------------------------------------------------|
E|------------------------------------------------------------------------|
         guitar one
e|-----15-----------------------------------------------------------------|
B|-----15-----15-----------15--18-15-------15--------15-------------15----|
G|--17----17--17b19r17b19--17-----17b19r17-17b19r17--17b19r17-------17b19-|
D|------------------------------------------------------------------------|
A|------------------------------------------------------------------------|
E|------------------------------------------------------------------------|
         guitar two
e|-17/21--17~~~~~~~~~17~~~~~~~~~17~~~~~~~~~17~~~~~~~~~17~~~~~~~~~~~~~~~~~~|
B|------------------------------------------------------------------------|
G|------------------------------------------------------------------------|
D|------------------------------------------------------------------------|
A|------------------------------------------------------------------------|
E|------------------------------------------------------------------------|
         guitar one
e|-----15-----------------------------------------------------------------|
B|-r17-17------------15----------------------------15-17------------------|
G|-------------------17b19r17p15-17-17b19r17p15----15-17---------15-----15|
D|----------------------------------------------17-------17-15-17--17-17--|
A|------------------------------------------------------------------------|
E|------------------------------------------------------------------------|
         guitar two
e|-17/15------15----15--------17-----17-------15-------14----------14--14-|
B|-------15------15----1517------17----1715-----1512---12-12p10---12---|
G|------------------------------------------------------------------------|
D|------------------------------------------------------------------------|
A|------------------------------------------------------------------------|
E|------------------------------------------------------------------------|
         guitar one                                   (bend very high)
e|------------------15-------------15----15-17b18-----17---18b22~~~-------|
B|---------------15----18-18b20~~-----18----------------------------------|
G|----15-17b19------------------------------------------------------------|
D|------------------------------------------------------------------------|
A|------------------------------------------------------------------------|
E|------------------------------------------------------------------------|
         guitar two
e|------------------------------------------------------------------------|
B|----1210-10/12----------------------------------------10/12------------|
G|------------------12----12/10------12----12-----12-------------12----12-|
D|------------------------------------------------------------------------|
A|------------------------------------------------------------------------|
E|------------------------------------------------------------------------|
         guitar one
e|-15---18p15---15--------15------------15-----------------15-15----------|
B|------------18--18b20~----18-18b20~-----18-18b20~--18b20-------18b20----|
G|------------------------------------------------------------------------|
D|------------------------------------------------------------------------|
A|------------------------------------------------------------------------|
E|------------------------------------------------------------------------|
         guitar two (w/ slide let them ring)
e|------------12------12------12--------12---12---12----------------------|
B|-12p10h12-------12------12-------12-----------------19-19-19-19-19-19---|
G|------------------------------------------------------------------------|
D|------------------------------------------------------------------------|
A|------------------------------------------------------------------------|
E|------------------------------------------------------------------------|
         guitar one
e|-15-15------15-15-15------15---15-15------15-15-15------1515-151515-----|
B|----18b20---------18b20-----------18b20---------18b20------------18b20--|
G|------------------------------------------------------------------------|
D|------------------------------------------------------------------------|
A|------------------------------------------------------------------------|
E|------------------------------------------------------------------------|
         guitar two
e|------------------------------------------21------------19h21-----------|
B|-19--19--19--19--19--19--19--19----19h21-----19--19--19-------------19--|
G|------------------------------------------------------------------------|
D|------------------------------------------------------------------------|
A|------------------------------------------------------------------------|
E|------------------------------------------------------------------------|
         guitar one                                    "and on a good day"
e|-1515151515-----15151515----------15------------------------------------|
B|---------18b20--------15-18p15----15--17--15---------------------------|
G|-------------------------------17-----17--16---------------------------|
D|-----------------------------------------------5---7-7------------------|
A|-----------------------------------------------x---x-x------------------|
E|-----------------------------------------------3---5-5------------------|
         guitar two
e|----------------------------1210--12--10-------------------------------|
B|-19--19--19-----19-19p17----1210--12--10--12-12------------------------|
G|-------------------------------------------12-12------------------------|
D|----------------------------------------------12------------------------|
A|------------------------------------------------------------------------|
E|------------------------------------------------------------------------|
 (Verse)
No time left now for shame.
Horizon behind me, no more pain.
Wind-swept stars blink and smile.
Another song, another mile.
Oh yeah.
 (First solo x2)
 (Verse)
You read the line every time,
Ask me about crime in my mind.
Ask me why another road song,
Funny, but I bet you never left home.
  (Chorus)
And on a good day, 
well i know it aint every day
we can part the sea.
And on a bad day,
well I know it aint every day
glory beyond our reach.
  (Second Solo)
  (Verse)
Fourteen seconds until sunrise,
Tired, but wiser for the time.
Lightning thirty miles away,
Three thousand more in two days.
  (Chorus)
And on a good day, 
well i know it ain't every day
we can part the sea.
And on a bad day,
well I know it ain't every day
glory beyond our reach.
  (Steel Pedal Guitar Solo) (play Verse)
  (Keyboard Solo)           (play Verse)
  (Third Guitar Solo)
  (Chorus)
And on a good day, 
well i know it ain't every day
we can part the sea.
And even on a bad day,
well I know it ain't every day
glory beyond our reach.
Whoa, and on a good day, 
well i know it ain't every day
we can part the sea.
And wow, on a bad day,
well I know it ain't every day
glory beyond our reach.
Well that was fun.
email corrections, complaints, 
compliments, questions, or whatever 
to Clayton at evenflow_pj@yahoo.com
Use one of the "Cool links" below to find more tabs/chords.

Cool links!
1.ChordGuide.com
2.Find Tabs!
3.Top 100 Tabs
4.Guitar Resource Center
5.LyricsProvider



Please rate the quality of this transcription:
More from this artist..
black crowes - she talks to angels
black crowes - remedy
black crowes - thorn in my pride