Guitarboard dave matthews band lyrics
Guitar Wiki   Top Guitar Sites
Home | Guitar Wiki | Top 100 Artists | Contact us
  Browse artists: A B C D E F G H I J K L M N O P Q R S R T U V W X Y Z 0 1 2 3 4 5 6 7 8 9 Print tablature  
   
 

angel



.angel.
by dave matthews

song made for baritone guitar.
tabbed for common 6-string in standard tuning (Eadgbe).

          part 1           | part 2  (optional riff )
e-------------------x--0-~-|--x--0---(--------------)-
b-------------------x--0-~-|--x--0---(-----9---7--5-)-
g---4------4--------x--1-~-|--3--1---(--------------)-
d---4--4/6---4/6-4--x--2-~-|--4--2---(-5/9---7----6-)-
a---2--4/6---4/6-4--x--2-~-|--4--2---(--------------)-
E---2---------------x--0-~-|--2--0---(--------------)-


                    part 3
   "why do i beg..."     "you'll be my angel"
e--x-(2)-x-(2)-0--x--------(0)(0)(0)--
b--x-(2)-x-(2)-0--2---------5-(0)(0)--
g--6--2--6--2--1--0---------6--9--9---
d--6--4--6--4--2--1---------4--7--6---
a--4--4--4--4--2--1---------x--7--7---
E--4--2--4--2--0--x---------5--0--0---


(part 1)
i call you up, you pick up
you call my bluff on the cards of love
you hold too close your hands to your chest
can't read your eyes but i confess

(part 2)
it's lonely far away from you
(part 1)
even when you're rite by me
(part 2)
it's only why i wait for you
(part 1)
to take me hand

(part 3)
why do i beg like a child for you candy?
why do i run after you like i do?
i love you
whate'er you are, i swear you'll be my angel

(1)
i play my cards the best i can
but loose my luck when you're not here
my darling heart, won't you please give in?
i may be strong, but i want you back again

(2)
when you're not here, it's hard to pretend
(1)
that it's all alrite
(2)
when you're not here, love, it's hard to pretend
(1)
it's all alrite

(3)
why do i beg like a child for your candy?
why do i run after you like i do?
i love you
whate'er you are, i swear you'll be my angel ... you

(1)
watch the deck, count your cards
it makes no sense, that i'm always loosin'
(single strums, letting the chords ring)
when you're gone

(2)
why do i beg like a child for your candy?
why do i come after you like a do?
i love you
whate'er you are, i swear you'll be my angel ... you

(1)
when you're gone


gentler/james
http://www.geocities.com/littletabguy
Use one of the "Cool links" below to find more tabs/chords.

Cool links!
1.Find Tabs!
2.ChordGuide.com
3.Top 100 Tabs
4.LyricsProvider
5.Guitar Resource Center



Please rate the quality of this transcription:
More from this artist..
dave matthews band - crash into me
dave matthews band - satellite
dave matthews band - crash