Guitarboard dave matthews band lyrics
Guitar Wiki   Top Guitar Sites
Home | Guitar Wiki | Top 100 Artists | Contact us
  Browse artists: A B C D E F G H I J K L M N O P Q R S R T U V W X Y Z 0 1 2 3 4 5 6 7 8 9 Print tablature  
   
 

crash into me ver2



CRASH.TAB
    This riff is playyed troughout the song. It is the riff for 
     C#m7              Asus2          E5/B              E5
e:|---------0----0-0-0------0--0-0-|--------0----0-0-0------0--0-0-|
B:|---------0----0-0-0------0--0-0-|--------0----0-0-0------0--0-0-|
G:|.--------4----4-4-4------4--4-4-|--------4----4-4-4------4--4-4-|
D:|.-------------2-2-2------2--2-2-|--------2----2-2-2------2--2-2-|
A:|---4-----------------0----------|--2----------------------------|
E:|--------------------------------|--------------------0----------|
  everything exept the chorus. Enjoy & God bless
    E/G#              Asus2         E5/B              E5
e:--------0----0-0-0------0--0-0-|--------0----0-0-0------0--0-0---|
B:--------0----0-0-0------0--0-0-|--------0----0-0-0------0--0-0---|
G:--------4----4-4-4------4--4-4-|--------4----4-4-4------4--4-4--.|
D:--------2----2-2-2------2--2-2-|--------2----2-2-2------2--2-2--.|
A:--------------------0----------|--2------------------------------|
E:--4----------------------------|--------------------0------------|
Use one of the "Cool links" below to find more tabs/chords.

Cool links!
1.Find Tabs!
2.ChordGuide.com
3.Top 100 Tabs
4.LyricsProvider
5.GUITAR TAB & CHORD FINDER ~ Le



Please rate the quality of this transcription:
More from this artist..
dave matthews band - crash into me
dave matthews band - satellite
dave matthews band - crash