Guitarboard dave matthews band lyrics
Guitar Wiki   Top Guitar Sites
Home | Guitar Wiki | Top 100 Artists | Contact us
  Browse artists: A B C D E F G H I J K L M N O P Q R S R T U V W X Y Z 0 1 2 3 4 5 6 7 8 9 Print tablature  
   
 

dave mattews band rapunzel



RAPUNZEL - Dave Matthews Band
E-x-------x-x---x---x-----------------------------------------------------
B-x-------x-x---x---x-----------------------------------------------------
G-x-------x-x---9-9-7-----------------------------------------------------
D-x-------x-5---7-7-5---------------------10-10---10-10---10--10---10-10--
A-5-5-5-5-8-x---x---x---------------------10-10---10-10---10--10---10-10--
E-x-------x-x---x---x----------------------8--7----8--7----8---7----8--7--
                                         ("I do   my best for you   I do") 
  G   C     F    C               G        C             F     C
E------------------------------------------------------------------------------
B------------------------------------------------------------------------------
G-----5----------5------------------------5-------------------5----------------
D-5---5-----3----5---------------5--------5-------------3-----5----------------
A-5---3-----3----3---------------5--------3-------------3-----3----------------
E-3---3-----1----3---------------3--------3-------------1-----3----------------
      "Open wide Oh so good I'll eat you  Take me for a ride  In your sweet..."
  d             C       d               C      d
E-5-------------8-------5---------------8------5-----
B-6-------------8-------6---------------8------6-----
G-7-------------9-------7---------------9------7-----
D-7------------10-------7--------------10------7-----
A-5------------10-------5--------------10------5-----
E-5-------------8-------5---------------8------5-----
  "I think the world of you  All of my heart I do..."
STRUM THESE BAR CHORDS ACCENTING THE DOWN BEATS.
  G    C   F    C
E-3----8---1----8-------------------------------------------------------------------
B-3----8---1----8-------------------------------------------------------------------
G-4----9---2----9-------------------------------------------------------------------
D-5---10---3---10-------------------------------------------------------------------
A-5---10---3---10-------------------------------------------------------------------
E-3----8---1----8-------------------------------------------------------------------
FOR THE JAM AT THE END STRUM THESE BAR CHORDS FOR THE SAME DURATION AS IN THE VERSE.  
Use one of the "Cool links" below to find more tabs/chords.

Cool links!
1.Find Tabs!
2.ChordGuide.com
3.Top 100 Tabs
4.LyricsProvider
5.Guitar Resource Center



Please rate the quality of this transcription:
More from this artist..
dave matthews band - crash into me
dave matthews band - satellite
dave matthews band - crash