Guitarboard Elliott Smith lyrics
Guitar Wiki   Top Guitar Sites
Home | Guitar Wiki | Top 100 Artists | Contact us
  Browse artists: A B C D E F G H I J K L M N O P Q R S R T U V W X Y Z 0 1 2 3 4 5 6 7 8 9 Print tablature  
   
 

some song



Some Song
RIP Elliot 1969-2003...you are dearly missed
I just wanted to add a lil somthin to the existing tab that works, I dont' know If i have another
version, but this is exact when playing with the CD!

---------------------------
---------------------------
---------------------------
--5--------10--------------
--5-(x8)---10-(x8)---------
--3--------8--------------- that's the verses...pretty simple then.....

Chorus:

--------------------------------------------
--------------------------8-----------8-----      
--7------3-------8--3--5--8--8--3--5--8-----
--7-(x4)-3--(x4)-8--3--5--6--8--3--5--6-----
--5------1-------6--1--3-----6--1--3--------

not affraid of anything...is the A and F power chord going in to the chorus and the part that
repeats is "help me kill my time....cause I'll never be fine"

*the chorus is all 4 downstrokes per chord and slid them and it sounds exact*
listen to the song for timing it's and easy song and really sounds good

thanks keep Elliots music alive forever
Email me with any questions hunterorahood@hotmail.com
Use one of the "Cool links" below to find more tabs/chords.

Cool links!
1.Find Tabs!
2.ChordGuide.com
3.Top 100 Tabs
4.Guitar Resource Center
5.LyricsProvider



Please rate the quality of this transcription:
More from this artist..
Elliott Smith - between the bars
Elliott Smith - say yes
Elliott Smith - miss misery