Guitarboard Jack Johnson lyrics
Guitar Wiki   Top Guitar Sites
Home | Guitar Wiki | Top 100 Artists | Contact us
  Browse artists: A B C D E F G H I J K L M N O P Q R S R T U V W X Y Z 0 1 2 3 4 5 6 7 8 9 Print tablature  
   
 

taylor



Taylor
by Jack Johnson
Tabbed by RAPPAZ


Intro Lick

e|------X----------------------X----------------X-------------------
B|------X----------------------X----------------X-------------------
G|------X----------------------X----------------X-------------------
D|------X----------------------X----------------X--1h3p1---1p0------
A|-013--X--1h3p1---1-11--------X-----1-2-0-1/3--X--------3-----3p0--
E|------X--------3-----3p0-11--X--123-----------X-------------------

e|--------X--------------------X---------------------------X-----X--|
B|--------X--------------------X---------------------------X--4--X--|
G|--------X--------------------X---------------------------X--2--X--|
D|--------X--------------------X--3-3/5-5-3p0-2p0----------X--3--X--|
A|--------X----1---1---1--1-3--X------------------3p0------X--3--X--|
E|-0-1-1--X-1h3-1h3-1h3-1------X----------------------1-1--X-----X--|

e|----------0----0---0---0------0--|
B|---1--1-3/5-5--3-3-1-1-1------1--|
G|---0--0-0-0----0---0---0h2p0--2--|
D|---2--2-2---------------------3--|
A|-0h3--3-3------------------------|
E|---------------------------------|

(@nd Lick just in case u donít like the first one)

e|-------------------------------X-----------------------------------------X---|
B|------X------------------------X-----------------X-----------------------X---|
G|------X------------------------X-----------------X-----------------------X---|
D|------X------------------------X-----------------X-1h3p1----3p1----------X---|
A|1-1h3----1h3p1---1--1h3p1------X------1-2-2-2/3----------3-----3p1-------X---|
E|---------------3----------3-1-1----123-----------------------------0-1-1-----|

e|----------------------------------------------------------------0--|
B|-----------------------------------------------------4--4-4-----1--|
G|-----------------------------------------------------2--2-2-----0--|
D|------------------------3-3/5-5-3p0-2p0--------------3--3-3---2----|
A|----1---1---1---1---3------------------3p0-----------3--3-3-3------|
E|-1h3-1h3-1h3-1h3----------------------------1-1--------------------|

e|---0---0---0-----------1-----|
B|--/5-5-3-3-1-1---------1-----|
G|---0---0---0---5p3p0---2-----|
D|---------------------3-3-----|
A|-----------------------------|
E|-----------------------------|


e|---------------------------------------
B|---------------------------------------
G|---------------------------------------
D|--5555X000-5555X000-2222X000-3333X000--
A|--3333X000-2222X000-0000X000-3333X000--
E|---------------------------------------


They say Taylor was a good girl
Never one to be late
Complain express ideas in her brain
Working on the night shift
Passing out the tickets
You're going to have to pay her
If you want to park here

Well Mommy's little dancer's
Quite a little secret
She's working on the streets now
Never going to keep it

It's quite an imposition
And now she's only wishin'
That she would have listened 
To the words they said
Poor Taylor


        C       G       Am     F
e|-------3---------1---------------------------
B|--5----3----5----1---------------------------
G|--5----4----5----2---------------------------
D|--5----5----7----3---------------------------
A|--3----5----7----3---------------------------
E|--3----3----5----1---------------------------


She just wanders around
Unaffected by the winter winds air
She pretends that she's somewhere else
So far and clear 
Around 2000 miles from here




e|-(0)-----------------------------------------------------
B|--1--1-1--1-1-/-3--3-3--3-3-/-6--6-6--6-6-/-8--8-8--8-8--
G|--0--0-0--0-0-/-0--0-0--0-0-/-0--0-0--0-0-/-0--0-0--0-0--
D|--2--2-2--2-2-/-4--4-4--4-4-/-7--7-7--7-7-/-9--9-9--9-9--
A|--3--3-3--3-3-/-5--5-5--5-5-/-8--8-8--8-8-/-10-1010-1010-
E|---------------------------------------------------------


Go back into the Intro.  

Use one of the "Cool links" below to find more tabs/chords.

Cool links!
1.LyricsProvider
2.Find Tabs!
3.ChordGuide.com
4.Top 100 Tabs
5.Guitar Resource Center



Please rate the quality of this transcription:
More from this artist..
Jack Johnson - F-stop blues
Jack Johnson - Flake
Jack Johnson - The news