Guitarboard Johnny Cash lyrics
Guitar Wiki   Top Guitar Sites
Home | Guitar Wiki | Top 100 Artists | Contact us
  Browse artists: A B C D E F G H I J K L M N O P Q R S R T U V W X Y Z 0 1 2 3 4 5 6 7 8 9 Print tablature  
   
 

ghost riders in the sky solo



This is the solo part to Johnny Cash's "Ghost Riders In The Sky"
--------------------------------------------------------------------------------
Artist:Johnny Cash
Song:Ghost Riders In The Sky (Solo)
This comes in kinda in the middle of the song.
1-------------------------------------------------------------------------
2-------------------------------------------------------------------------
3-------------------------------------------------------------------------
4-------------------------------------------------------------------------
5--0---2-2-2----4-5-4-5-----2---0-0-0-----0---------0---2-2-2----4-5-4-5--
6--------------------------------------2----------------------------------
1-------------------------------------------------------------------------
2-------------------------------------------------------------------------
3-------------------------------------------------------------------------
4-------------------------------------------------------------------------
5--7---9-9-9----5--9-------9-9---14-14---12-14-12-9---5---9-9---7--5--2---
6-------------------------------------------------------------------------
1-------------------------------------------------------------------------
2-------------------------------------------------------------------------
3-------------------------------------------------------------------------
4-------------------------------------------------------------------------
5----------------5--5-5--------5--5---2--2---0---2------------------------
6---0---2-2-2-2-----------------------------------------------------------
That's it, simple huh?  Sorry I couldn't put the timing in, you'll just 
have to hear the song to figure it out.  Oh yeah, this is my first tab so
please feel free to e-mail me with any corrections
Use one of the "Cool links" below to find more tabs/chords.

Cool links!
1.Find Tabs!
2.ChordGuide.com
3.Top 100 Tabs
4.LyricsProvider
5.Guitar Resource Center



Please rate the quality of this transcription:
More from this artist..
Johnny Cash - folsom prison blues
Johnny Cash - i walk the line
Johnny Cash - ghost riders in the sky solo