Guitarboard papa roach lyrics
Guitar Wiki   Top Guitar Sites
Home | Guitar Wiki | Top 100 Artists | Contact us
  Browse artists: A B C D E F G H I J K L M N O P Q R S R T U V W X Y Z 0 1 2 3 4 5 6 7 8 9 Print tablature  
   
 

broken home



Jon-Michael Southworth
jus103@psu.edu
Papa Roach
Broken Home
  TUNING: standard (E-A-D-G-B-E)
  INTRO A: *=echo
  E|--------------------------------------------------|
  B|--------------------------------------------------|
  G|-----------------1-1-1-1-----2-2-2-2-----1-1-1-1--| 
  D|--------------------------------------------------|
  A|--x--4-4-4-4--x--4-4-4-4--x--4-4-4-4--x--4-4-4-4--|
  E|--x--2-2-2-2--x--2-2-2-2--x--2-2-2-2--x--2-2-2-2--|
  E|-------*-*-*-------*-*-*-------*-*-*-------*-*-*--| 
  INTRO PART A:
  E|-----------------------------------|
  B|-----------------------------------|
  G|----------6-6-6-6-7-7-7-7-9-9-9-9--| 
  D|--4-4-4-4-6-6-6-6-7-7-7-7-9-9-9-9--|
  A|--4-4-4-4-4-4-4-4-5-5-5-5-7-7-7-7--|
  E|--2-2-2-2-4-4-4-4-5-5-5-5-7-7-7-7--|
  VERSE: 
  E|----------------------------|
  B|----------------------------|
  G|--------6-6/7---7-7/9--x-9--| 
  D|--4-4------------------x-9--|
  A|--4-4---4-4/5---5-5/7--x-7--|
  E|--2-2-----------------------|
  CHORUS:
  E|--------------------------------------------------------------------------|
  B|--------------------------------------------------------------------------|
  G|--------------------------------------------------------------------------| 
  D|--4-4---x-4-4--x-4-4---x-4-4-----12-12-12-12-11-11-11-11-9-9-9-9-7-7-7-7--|
  A|--4-4---x-4-4--x-4-4---x-4-4----------------------------------------------|
  E|--2-2---x-2-2--x-2-2---x-2-2-----10-10-10-10--9--9--9--9-7-7-7-7-5-5-5-5--|
  You can also play the previous chorus riff this way:
  E|-------------------------------------------------------------------|
  B|-------------------------------------------------------------------|
  G|---------------------------------7-7-7-7--6-6-6-6-4-4-4-4----------| 
  D|--4-4---x-4-4--x-4-4---x-4-4------------------------------7-7-7-7--|
  A|--4-4---x-4-4--x-4-4---x-4-4-----5-5-5-5--4-4-4-4-2-2-2-2----------|
  E|--2-2---x-2-2--x-2-2---x-2-2------------------------------5-5-5-5--|
  FILL 1:
  E|-------------------|
  B|-------------------|
  G|-------------------| 
  D|--4-4----2-2--4-4--|
  A|--4-4----2-2--4-4--|
  E|--2-2----0-0--2-2--|
  FILL 2:
  E|-----|
  B|-----|
  G|-----| 
  D|--4--|
  A|--4--|
  E|--2--|
 
            Coming Up on Yahoo! Chat 
            More...
                  Carl Cox
                  Carl Cox has been named the "greatest DJ in the world". Log on 
                  for a live audio chat with the legend on Thursday, July 20 at 
                  10pET/7pPT.
                  Coming Up on Yahoo! Chat 
            [Close]
            undefined
            [Close]
 
Use one of the "Cool links" below to find more tabs/chords.

Cool links!
1.SOLO GUITAR METHOD!!
2.Find Tabs!
3.ChordGuide.com
4.Guitar Resource Center
5.LyricsProvider



Please rate the quality of this transcription:
More from this artist..
papa roach - last resort correct
papa roach - last resort solo correct
papa roach - she loves me not