Guitarboard papa roach lyrics
Guitar Wiki   Top Guitar Sites
Home | Guitar Wiki | Top 100 Artists | Contact us
  Browse artists: A B C D E F G H I J K L M N O P Q R S R T U V W X Y Z 0 1 2 3 4 5 6 7 8 9 Print tablature  
   
 

last resort ver11



Author/Artist: Papa Roach
Title: Last Resort
Album: Infest
Transcribed by: Jarkko Laitinen
Email: laitinej@norssi.jyu.fi
This is compleatly correct becouse i learned this from the guitar 
maestro Jerry Horton. Tuning is DADGBE
Intro Riff
-|-------------------|-----------------------|--------------------------------
-|-------------------|-----------------------|--------------------------------
-|-------------------|-----------------------|--------------------------------
-|-9-9------7-7------|----5-5----4-4--7-7----|--------------------------------
-|-7-7------5-5------|----3-3----2-2--5-5----|--------------------------------
-|-9-9------7-7------|----5-5----4-4--7-7----|--------------------------------
                                                                              
Single Note Riff
-|-----------------------------------------|----------------------------------
-|-----------------------------------------|----------------------------------
-|-----------------------------------------|----------------------------------
-|-----------9--------------------9--------|-----------9-------------------9--
-|-7-10-9-10---10-9-10----10-9-10---10-9-10|---10-9-10---10-9-10---10-9-10----
-|---------------------12------------------|10-------------------9------------
                                                                              
--------|-|-------------------------------------------------------------------
--------|-|-------------------------------------------------------------------
--------|-|-------------------------------------------------------------------
--------|-|-------------------------------------------------------------------
-10-9-10|-|-------------------------------------------------------------------
--------|-|-------------------------------------------------------------------
                                                                              
Chorus Riff
------------------------------------------------------------------------------
------------------------------------------------------------------------------
------------------------------------11--11--11--11---12--12--12-12--14--14----
-14141414141414-0-10101010101010-0--------------------------------------------
-14141414141414-0-10101010101010-0---9---9---9---9---10--10--10-10--12--12----
-14141414141414-0-10101010101010-0--------------------------------------------
                                                                              
------------------------------------------------------------------------------
------------------------------------------------------------------------------
-14--14--11--11--11--11-------------------------------------------------------
------------------------------------------------------------------------------
-12--12---9---9---9---9-------------------------------------------------------
------------------------------------------------------------------------------
                                                                              
If you find something wrong in this tab send me mail!
Use one of the "Cool links" below to find more tabs/chords.

Cool links!
1.ChordGuide.com
2.Find Tabs!
3.LyricsProvider
4.Top 100 Tabs
5.Guitar Resource Center



Please rate the quality of this transcription:
More from this artist..
papa roach - last resort correct
papa roach - last resort solo correct
papa roach - she loves me not