Guitarboard papa roach lyrics
Guitar Wiki   Top Guitar Sites
Home | Guitar Wiki | Top 100 Artists | Contact us
  Browse artists: A B C D E F G H I J K L M N O P Q R S R T U V W X Y Z 0 1 2 3 4 5 6 7 8 9 Print tablature  
   
 

last resort ver12



Title: Papa Roach 
Song: Last Resort intro 100%
Album: Infest
Transcribed by: Jarrett Williams
Email: rpboy24@aol.com
Email me if you think its wrong
Its In Drop D Tuning
---------------------------------------------|--------------------------------
---------------------------------------------|--------------------------------
---------------------------------------------|--------------------------------
----------------9-------------------9--------|------------9-------------------
-7-10-9-10-9-10--10-9-10----10-9-10---10-9-10|----10-9-10---10-9-10---10-9-10-
-------------------------12------------------|-10-------------------9---------
                                                                              
------------------------------------------------------------------------------
------------------------------------------------------------------------------
------------------------------------------------------------------------------
--------9---------------------------------------------------------------------
-10-9-10--10-9-10-------------------------------------------------------------
------------------------------------------------------------------------------
                                                                              
Use one of the "Cool links" below to find more tabs/chords.

Cool links!
1.SOLO GUITAR METHOD!!
2.Find Tabs!
3.ChordGuide.com
4.Guitar Resource Center
5.CAMERATABS



Please rate the quality of this transcription:
More from this artist..
papa roach - last resort correct
papa roach - last resort solo correct
papa roach - she loves me not