Guitarboard papa roach lyrics
Guitar Wiki   Top Guitar Sites
Home | Guitar Wiki | Top 100 Artists | Contact us
  Browse artists: A B C D E F G H I J K L M N O P Q R S R T U V W X Y Z 0 1 2 3 4 5 6 7 8 9 Print tablature  
   
 

last resort ver16



Last Resort
By Papa Roach
This is my first papa roach tab and I'm thinking it is quite accurate.  I've looked around for
others and some of them don't sound quite right. So, enjoy.
Intro
-----
e-----------------------| 
B-----------------------| 
G--9-9--7-7--5-5--4-7---| 
D--9-9--7-7--5-5--4-7---| 
A--7-7--5-5--3-3--2-5---| 
E-----------------------| 
Main Riff
---------
(x2)
e---------------------------------------------------------------
B---------------------------------------------------------------
G---------------------------------------------------------------
D------------9--------------------9-------------------9---------
A----10-9-10---10-9-10----10-9-10---10-9-10---10-9-10---10-9-10-
E-12-------------------10-------------------8-------------------
e----------------------|
B----------------------|
G------------9---------|
D----10-9-10---10-9-10-|
A--7-------------------|
E----------------------|
Verse
-----
It's just the MAIN RIFF (x4 Palm Muted)
On fourth time don't play the last bar, play this instead:
e----------------------|
B----------------------|
G---4-4-4-4--7-7-7-7---|
D---4-4-4-4--7-7-7-7---|
A---2-2-2-2--5-5-5-5---|
E----------------------|
Chorus part 1              
--------------             
(x2)                       
e--------------------------------|
b--------------------------------|  
G-9-9-9-9--5-5-5-5--11--12-14-11-| 
D-9-9-9-9--5-5-5-5--x---x--x--x--| 
A-7-7-7-7--3-3-3-3--9--10-12--9--| 
E--------------------------------| 
Play MAIN RIFF
Play VERSE
Play CHORUS PART 1 (x2)
Chorus Part 2 
--------------
(x2)
e--------------------------------|
B--------------------------------|
G-9-9-9-9--5-5-5-5-----------4-4-|  
D-9-9-9-9--5-5-5-5--5-5-5-5--4-4-|  
A-7-7-7-7--3-3-3-3--5-5-5-5--2-2-|  
E-------------------3-3-3-3------|  
Bridge
------
(x2)
e----------------------------------------------| 
B----------------------------------------------| 
G-9-9-9-9-----------5-5-5-5--4-4--7-7-4-7-9----| 
D-9-9-9-9--5-5-5-5--5-5-5-5--4-4--7-7-4-7-9----| 
A-7-7-7-7--5-5-5-5--3-3-3-3--2-2--5-5-2-5-7----| 
E----------3-3-3-3-----------------------------| 
Play INTRO (x4)
Play MAIN RIFF (x2)
Play CHORUS PART 1 (x2)
Play CHORUS PART 2 (x2)
CHORUS part 3
-------------
(x2) #=Palm Mute
e------------------------------------|
b------------------------------------|  
G-9-9-9-9--5-5-5-5--11#--12#-14#-11#-| 
D-9-9-9-9--5-5-5-5--x----x---x---x---| 
A-7-7-7-7--3-3-3-3--9#---10#-12#-9#--| 
E------------------------------------| 
OUTRO
-----
e------------------------------------------------------------------|
B------------------------------------------------------------------|
G---9-9-9-9--5-5-5-5----------------9-9#---5-5#--11--12--14--11----|
D---9-9-9-9--5-5-5-5--5#-5#-5#-5#---9-9#---5-5#--x---x---x---x-----|
A---7-7-7-7--3-3-3-3--5#-5#-5#-5#---7-7#---3-3#--9---10--12--9-----|
E---------------------3#-3#-3#-3#----------------------------------|
Play CHORUS PART 1 (x2)
e---------------------|
B---------------------|
G---9-9-9-9--9-7-9----|
D---9-9-9-9--9-7-9----|
A---7-7-7-7--7-5-7----|
E---------------------|
That should be it, done by me, Yi Li (Rocknrollstar1601@hotmail.com).  
Follow up your performance with the total destruction of the stage in the shape of smashing up
everything and shouting "FUCK YOU" to the crowd.
Use one of the "Cool links" below to find more tabs/chords.

Cool links!
1.ChordGuide.com
2.Find Tabs!
3.LyricsProvider
4.Top 100 Tabs
5.Guitar Resource Center



Please rate the quality of this transcription:
More from this artist..
papa roach - last resort correct
papa roach - last resort solo correct
papa roach - she loves me not