Guitarboard rush lyrics
Guitar Wiki   Top Guitar Sites
Home | Guitar Wiki | Top 100 Artists | Contact us
  Browse artists: A B C D E F G H I J K L M N O P Q R S R T U V W X Y Z 0 1 2 3 4 5 6 7 8 9 Print tablature  
   
 

working man



#----------------------------------PLEASE NOTE---------------------------------#
#This file is the author's own work and represents their interpretation of the #
#song. You may only use this file for private study, scholarship, or research. #
#------------------------------------------------------------------------------##
"Working Man" by Rush
Tabbed by Jeff Blank (jfblank@picard.infonet.net)
-------------------------------------------------
/   Slide up
   Slide down
(0) Ghost/grace note
Intro/verse: (repeat several times)
-----------------------------------------------
-----------------------------------------------
-----------------------------------------------
-(2)-2--(2)-2----------(2)-2--(2)-2------------
-(2)-2--(2)-2----5-----(2)-2--(2)-2----3--3h5-
(5)-5~-5>(7)-7~-7-8~-8-7-8-7-5-7-5---5------_------------------
---------------------------------------7---7-6-7-6-4--------_------
------------------------------------------------------5-7-5-7-5----
-----------------------------------------------------------------7--
--------------------------------------------------------------------
----------------------------------------------------------------10-
------------------------------------------_---------8-10!-10!-10!---
------------_---------_----------------7-9-7---7-9-----------------
--5-7!-5-7-7-5---5-7-7-5-----_--5-7>9-------9---------------------
---------------7----------7--5-7-----------------------------------
--------------------------------------------------------------------
--10-----10----_-------------------------------_--------------
------10!----10!-8--8---8-10!-8---8--12!--10!-10!-8---10-8-----
------------------9--9---------9-------------------9------7-9-
---------------------------------------------------------------
---------------------------------------------------------------
----------------------------------------------------------------
--------------------------------------------------------------------
-------------------_----------_-------_-----------------------------
---_--7-9!---9!-9!-9-7---7-9!-9!-7---9-9-7--7-----------_----_------
--7-9-----------------9----------9-------9---9-8-7-5-7-5--7-5-----
----------------------------------------------------------7----7-5~~
--------------------------------------------------------------------
I couldn't transcribe the rest of the solos to my satisfaction, so I left them out.  The only other
part of the song I know is the following. . .
-------------------------------------------------------------------
-------------------------------------------------------------------
-------------------------------------------------------------------
-------_----------_-------------------------_---------_------------
--7-7-7-5---7-7-7-5---7-5---5~~--7-5-7-7-7-5---7-7-7-5--7-5---5~
----------7----------7-----7-------------------7---------5-----7---
----------_----------_---------3~----------_----------_---------3~
-----5-5-5-3---5-5-5-3--5-3------5-3-5-5-5-3---5-5-5-3--5-3-----
-------------4---------4-----4-----------------4---------4----4----
-------------------------------------------------------------------
-7-5----------------------------------------------------------------
--------------------------------------------------------------------
                         _
--0-3-5-5!-5!-5-3---5-3-------3-----------
------------------5-----5-3-5--5-3-0-3-5!
------------------------------------------
------------------------------------------
------------------------------------------
------------------------------------------
-----------------------------------------
----------------------------------------
-----------------------------------------
-----------------------------------------
--7-7-7-7-5---5~--5--5------------------
-------------7----------7-5-3~--3-5-3-0-
Key-
~ vibrato
!  bend
_  hammer on or pull off
> slide up
That's it. . .
Any questions?. . .Janss- ubeads@mcl.mcl.ucsb.edu
Use one of the "Cool links" below to find more tabs/chords.

Cool links!
1.ChordGuide.com
2.Find Tabs!
3.Top 100 Tabs
4.LyricsProvider
5.Guitar Resource Center



Please rate the quality of this transcription:
More from this artist..
rush - closer to the heart
rush - spirit of radio
rush - working man